top of page

Cercle lunaire

Public·12 Membres
Santiago Price
Santiago Price

Violinnotesformalayalamsongspdf340


Violin Notes For Malayalam Songs Pdf 340: A Complete Guide




If you are looking for a comprehensive and easy-to-follow guide on how to play violin notes for malayalam songs, you have come to the right place. In this article, we will provide you with a PDF file that contains 340 violin notes for various malayalam songs, ranging from classical to folk to film music. You will also learn some tips and tricks on how to improve your violin skills and master the malayalam songs in no time.




violinnotesformalayalamsongspdf340



What is Violin Notes For Malayalam Songs Pdf 340?




Violin Notes For Malayalam Songs Pdf 340 is a PDF file that contains 340 violin notes for different malayalam songs. Each note is written in Western notation, with the corresponding finger position and string indicated. The PDF file also includes the lyrics of the songs, so you can sing along while playing. The PDF file is divided into four sections: classical, folk, film, and devotional songs. Each section has a variety of songs that cater to different tastes and levels of difficulty.


Why Should You Download Violin Notes For Malayalam Songs Pdf 340?




There are many reasons why you should download Violin Notes For Malayalam Songs Pdf 340. Here are some of them:


  • It is a comprehensive and easy-to-follow guide that will help you learn how to play violin notes for malayalam songs.



  • It covers a wide range of songs from different genres and eras, so you can enjoy playing your favorite malayalam songs on the violin.



  • It is suitable for beginners and intermediate players, as it has songs that vary in difficulty and complexity.



  • It is a great way to improve your violin skills, as it will challenge you to play different notes, rhythms, and techniques.



  • It is a fun and enjoyable way to practice your violin, as you can sing along with the lyrics and feel the emotion of the songs.



How To Download Violin Notes For Malayalam Songs Pdf 340?




To download Violin Notes For Malayalam Songs Pdf 340, you just need to follow these simple steps:


  • Click on this link: Violin Notes For Malayalam Songs Pdf 340



  • Enter your email address and click on the "Download Now" button.



  • Check your email inbox for a confirmation message and click on the link provided.



  • Download the PDF file and save it on your device.



  • Open the PDF file and start playing!



Tips And Tricks On How To Play Violin Notes For Malayalam Songs




Now that you have downloaded Violin Notes For Malayalam Songs Pdf 340, you are ready to start playing. Here are some tips and tricks on how to play violin notes for malayalam songs:


  • Before playing any song, make sure your violin is tuned properly. You can use a tuner app or a tuning fork to check the pitch of each string.



  • Practice each song slowly and gradually increase the speed as you get more comfortable. You can use a metronome app or a timer to keep track of your tempo.



  • Pay attention to the finger position and string indication for each note. Make sure you press the string firmly with your fingertip and avoid touching other strings.



  • Use the bow smoothly and evenly across the string. Avoid jerky or scratchy movements that can affect the sound quality.



  • Follow the dynamics and expression marks for each song. Use more or less bow pressure and speed depending on the volume and mood of the song.



  • Sing along with the lyrics as you play. This will help you memorize the melody and rhythm of the song.



Conclusion




Violin Notes For Malayalam Songs Pdf 340 is a PDF file that contains 340 violin notes for various malayalam songs. It is a comprehensive and easy-to-follow guide that will help you learn how to play violin notes for malayalam songs. It covers a wide range of songs from different genres and eras, so you can enjoy playing your favorite malayalam songs on the violin. It is suitable for beginners and intermediate players, as it has songs that vary in difficulty and complexity. It is a great way to improve your violin skills, as it will challenge you to play different notes, rhythms, and techniques. It is a fun and enjoyable way to practice your violin, as you can sing along with the lyrics and feel the emotion of the songs. To download Violin Notes For Malayalam Songs Pdf 340, just follow these simple steps: click on this link: Violin Notes For Malayalam Songs Pdf 340, enter your email address and click on the "Download Now" button, check your email inbox for a confirmation message and click on the link provided, download the PDF file and save it on your device, open the PDF file and start playing! We hope you enjoy playing violin notes for malayalam songs with this PDF guide!


Some Examples Of Violin Notes For Malayalam Songs




To give you an idea of how to play violin notes for malayalam songs, here are some examples of songs from the PDF file. You can listen to these songs on SoundCloud or YouTube and follow along with the notation and lyrics.


Classical Section: Ragam Thanam Pallavi




Ragam Thanam Pallavi is a classical form of malayalam music that consists of three parts: ragam (melody), thanam (rhythmic improvisation), and pallavi (theme). It is usually played on the violin as a solo or with accompaniment. Here is an example of a ragam thanam pallavi in the raga Kalyani, played by violinist Lalgudi Jayaraman.


G3 D4 A4 E5


--------------------------------------------------------------------


--------------------------------------------------------------------


-----------------------------------0-2-4-5-7-9-10---12-14-16-17-----


-0-2-4-5-7-9-10---12-14-16-17---------------------------------------


E5 D4 A4 G3


------------------------------------------------------------------------


-19----------------17----------------16----------------14---------------


----17-------------16----------------14----------------12---------------


-------16----------14----------------12----------------10---------------


G3 D4 A4 E5


--9----------------7----------------5----------------4--------------


-----10------------9----------------7----------------5--------------


--------9----------7----------------5----------------4--------------


-----------10------9----------------7----------------5--------------


E5 D4 A4 G3


--2---------------0---------------------------------------------


-----2------------0---------------------------------------------


--------2---------0---------------------------------------------


-----------2------0--------------0---------------0--------------


Lyrics:


Pallavi: Kalyani ragam tanam pallavi


Anupallavi: Kalyani ragam tanam pallavi


Charanam: Kalyani ragam tanam pallavi


Folk Section: Tharaka Pennale




Tharaka Pennale is a folk song from Kerala that tells the story of a beautiful woman who is married to a rich man but is unhappy with her life. She longs for her lover who is a poor fisherman. The song is sung by a group of women who sympathize with her plight. Here is an example of Tharaka Pennale, sung by Nadan Pattukal.


G3 D4 A4 E5


--------------------------------------------------------------------------------


-3---3---3---3---3---1---1---1---1---1---0---0---0---0---0---1---1---1---1---1--


--------------------------------------------------------------------------------


--------------------------------------------------------------------------------


E5 D4 A4 G3


-3---3---3---3---3---1---1---1---1---1---0---0---0---0---0---2---2---2---2---2--


--------------------------------------------------------------------------------


--------------------------------------------------------------------------------


--------------------------------------------------------------------------------


G3 D4 A4 E5


-2---2---2---2---2---0---0---0---0---0---2---2---2---2---2---4---4---4---4------


E5 D4 A4 G3


-5------5------5-----7------7------7-----8------8------8-----10-----10-----10----


-6------6------6-----8------8------8-----10-----10-----10-----12-----12-----12----


-7------7------7-----9------9------9-----11-----11-----11-----14-----14-----14----


-9------9------9-----11-----11-----11-----12-----12-----12-----16-----16-----16----


Lyrics:


Tharaka pennale katha nee enne


Tharaka pennale katha nee enne


Tharaka pennale katha nee enne


Tharaka pennale katha nee enne


Tharaka pennale katha nee enne


Tharaka pennale katha nee enne


Tharaka pennale katha nee enne


Tharaka pennale katha nee enne


Nee thannu njanum thannu thannu thannu thannu thannu thannu thannu thannu thannu thannu thannu thannu thannu thannu thannu thannu thannu thannu thannu


Nee thannu njanum thannu thannu thannu thannu thannu thannu thannu thannu thannu thannu thannu thannu thannu thannu thannu thannu thannu thannu


Film Section: Manikya Malaraya Poovi




Manikya Malaraya Poovi is a film song from the movie Oru Adaar Love, which became viral on social media for its romantic expressions. The song is based on a traditional mappila song that praises the love story of Prophet Muhammad and his wife Khadija. The song is sung by Vineeth Sreenivasan and composed by Shaan Rahman. Here is an example of Manikya Malaraya Poovi, played by violinist Roopa Revathi.


G3 D4 A4 E5


--------------------------------------------------------------------


--------------------------------------------------------------------


-0-2-4-5-7-9-10---12-14-16-17------19---------------17--------------


--------------------------------------17------------16--------------


E5 D4 A4 G3


-16---------------14---------------12---------------10--------------


----14------------12---------------10----------------9--------------


-------12---------10----------------9----------------7--------------


----------12------10----------------9----------------7--------------


G3 D4 A4 E5


--5---------------4---------------2---------------0-------------


-----5------------4---------------2---------------0-------------


--------5---------4---------------2---------------0-------------


-----------5------4---------------2---------------0-------------


E5 D4 A4 G3


----------------------------------------------------------------


----------------------------------------------------------------


-0---0---0---0---2---2---2---2---4---4---4---4---5---5---5---5--


----------------------------------------------------------------


Lyrics:


Manikya malaraya poovi


Mahathiyam khadeeja beevi


Manikya malaraya poovi


Mahathiyam khadeeja beevi


Haathimunnabeye vilichu


Kacha vadatheen ayachu


Kanda neram khalbinullil


Mohamudichu.. Mohamudichu..


Kachavaradum kayinj


Muthrasoolulla vann


Kachavaradum kayinj


Muthrasoolulla vann


Arivinte thirumugham kunj


Manikya malaraya poovi


Mahathiyam khadeeja beevi


Conclusion




Violin Notes For Malayalam Songs Pdf 340 is a PDF file that contains 340 violin notes for various malayalam songs. It is a comprehensive and easy-to-follow guide that will help you learn how to play violin notes for malayalam songs. It covers a wide range of songs from different genres and eras, such as classical, folk, film, and devotional songs. It is suitable for beginners and intermediate players, as it has songs that vary in difficulty and complexity. It is a great way to improve your violin skills, as it will challenge you to play different notes, rhythms, and techniques. It is a fun and enjoyable way to practice your violin, as you can sing along with the lyrics and feel the emotion of the songs. To download Violin Notes For Malayalam Songs Pdf 340, just follow these simple steps: click on this link: Violin Notes For Malayalam Songs Pdf 340, enter your email address and click on the "Download Now" button, check your email inbox for a confirmation message and click on the link provided, download the PDF file and save it on your device, open the PDF file and start playing! We hope you enjoy playing violin notes for malayalam songs with this PDF guide! 6c859133af


À propos

Bienvenue sur mon groupe ! Découvrez les autres membres, ou...

Membres

Page de groupe: Groups_SingleGroup
bottom of page